  0
SECTION
  2
HEADER
  9
$ACADVER
  1
AC1015
  9
$ACADMAINTVER
 70
     6
  9
$DWGCODEPAGE
  3
ANSI_1254
  9
$INSBASE
 10
0.0
 20
0.0
 30
0.0
  9
$EXTMIN
 10
0.0
 20
0.0
 30
0.0
  9
$EXTMAX
 10
279.4
 20
215.9
 30
0.0
  9
$LIMMIN
 10
0.0
 20
0.0
  9
$LIMMAX
 10
279.4
 20
215.9
  9
$ORTHOMODE
 70
     0
  9
$REGENMODE
 70
     1
  9
$FILLMODE
 70
     1
  9
$QTEXTMODE
 70
     0
  9
$MIRRTEXT
 70
     1
  9
$LTSCALE
 40
1.0
  9
$ATTMODE
 70
     1
  9
$TEXTSIZE
 40
3.5
  9
$TRACEWID
 40
1.0
  9
$TEXTSTYLE
  7
Standard
  9
$CLAYER
  8
0
  9
$CELTYPE
  6
ByLayer
  9
$CECOLOR
 62
   256
  9
$CELTSCALE
 40
1.0
  9
$DISPSILH
 70
     0
  9
$DIMSCALE
 40
1.0
  9
$DIMASZ
 40
3.5
  9
$DIMEXO
 40
1.0
  9
$DIMDLI
 40
3.75
  9
$DIMRND
 40
0.0
  9
$DIMDLE
 40
0.0
  9
$DIMEXE
 40
1.0
  9
$DIMTP
 40
0.0
  9
$DIMTM
 40
0.0
  9
$DIMTXT
 40
3.5
  9
$DIMCEN
 40
2.5
  9
$DIMTSZ
 40
0.0
  9
$DIMTOL
 70
     0
  9
$DIMLIM
 70
     0
  9
$DIMTIH
 70
     1
  9
$DIMTOH
 70
     1
  9
$DIMSE1
 70
     0
  9
$DIMSE2
 70
     0
  9
$DIMTAD
 70
     1
  9
$DIMZIN
 70
     0
  9
$DIMBLK
  1

  9
$DIMASO
 70
     1
  9
$DIMSHO
 70
     1
  9
$DIMPOST
  1

  9
$DIMAPOST
  1

  9
$DIMALT
 70
     0
  9
$DIMALTD
 70
     3
  9
$DIMALTF
 40
0.0393700787
  9
$DIMLFAC
 40
1.0
  9
$DIMTOFL
 70
     1
  9
$DIMTVP
 40
0.0
  9
$DIMTIX
 70
     0
  9
$DIMSOXD
 70
     0
  9
$DIMSAH
 70
     0
  9
$DIMBLK1
  1

  9
$DIMBLK2
  1

  9
$DIMSTYLE
  2
ISO-25
  9
$DIMCLRD
 70
     0
  9
$DIMCLRE
 70
     0
  9
$DIMCLRT
 70
     0
  9
$DIMTFAC
 40
1.0
  9
$DIMGAP
 40
1.524
  9
$DIMJUST
 70
     0
  9
$DIMSD1
 70
     0
  9
$DIMSD2
 70
     0
  9
$DIMTOLJ
 70
     0
  9
$DIMTZIN
 70
     0
  9
$DIMALTZ
 70
     0
  9
$DIMALTTZ
 70
     0
  9
$DIMUPT
 70
     0
  9
$DIMDEC
 70
     2
  9
$DIMTDEC
 70
     2
  9
$DIMALTU
 70
     2
  9
$DIMALTTD
 70
     3
  9
$DIMTXSTY
  7
Standard
  9
$DIMAUNIT
 70
     0
  9
$DIMADEC
 70
     2
  9
$DIMALTRND
 40
0.0
  9
$DIMAZIN
 70
     0
  9
$DIMDSEP
 70
    44
  9
$DIMATFIT
 70
     3
  9
$DIMFRAC
 70
     0
  9
$DIMLDRBLK
  1

  9
$DIMLUNIT
 70
     2
  9
$DIMLWD
 70
    -2
  9
$DIMLWE
 70
    -2
  9
$DIMTMOVE
 70
     0
  9
$LUNITS
 70
     2
  9
$LUPREC
 70
     2
  9
$SKETCHINC
 40
1.0
  9
$FILLETRAD
 40
10.0
  9
$AUNITS
 70
     0
  9
$AUPREC
 70
     2
  9
$MENU
  1
.
  9
$ELEVATION
 40
0.0
  9
$PELEVATION
 40
0.0
  9
$THICKNESS
 40
0.0
  9
$LIMCHECK
 70
     0
  9
$CHAMFERA
 40
0.0
  9
$CHAMFERB
 40
0.0
  9
$CHAMFERC
 40
0.0
  9
$CHAMFERD
 40
0.0
  9
$SKPOLY
 70
     0
  9
$TDCREATE
 40
2459935.709635382
  9
$TDUCREATE
 40
2459935.584635382
  9
$TDUPDATE
 40
2459935.709635556
  9
$TDUUPDATE
 40
2459935.584635556
  9
$TDINDWG
 40
0.0000000116
  9
$TDUSRTIMER
 40
0.0000000116
  9
$USRTIMER
 70
     1
  9
$ANGBASE
 50
0.0
  9
$ANGDIR
 70
     0
  9
$PDMODE
 70
     0
  9
$PDSIZE
 40
-1.0
  9
$PLINEWID
 40
0.0
  9
$SPLFRAME
 70
     0
  9
$SPLINETYPE
 70
     6
  9
$SPLINESEGS
 70
     8
  9
$HANDSEED
  5
F5
  9
$SURFTAB1
 70
     6
  9
$SURFTAB2
 70
     6
  9
$SURFTYPE
 70
     6
  9
$SURFU
 70
     6
  9
$SURFV
 70
     6
  9
$UCSBASE
  2

  9
$UCSNAME
  2

  9
$UCSORG
 10
0.0
 20
0.0
 30
0.0
  9
$UCSXDIR
 10
1.0
 20
0.0
 30
0.0
  9
$UCSYDIR
 10
0.0
 20
1.0
 30
0.0
  9
$UCSORTHOREF
  2

  9
$UCSORTHOVIEW
 70
     0
  9
$UCSORGTOP
 10
0.0
 20
0.0
 30
0.0
  9
$UCSORGBOTTOM
 10
0.0
 20
0.0
 30
0.0
  9
$UCSORGLEFT
 10
0.0
 20
0.0
 30
0.0
  9
$UCSORGRIGHT
 10
0.0
 20
0.0
 30
0.0
  9
$UCSORGFRONT
 10
0.0
 20
0.0
 30
0.0
  9
$UCSORGBACK
 10
0.0
 20
0.0
 30
0.0
  9
$PUCSBASE
  2

  9
$PUCSNAME
  2

  9
$PUCSORG
 10
0.0
 20
0.0
 30
0.0
  9
$PUCSXDIR
 10
1.0
 20
0.0
 30
0.0
  9
$PUCSYDIR
 10
0.0
 20
1.0
 30
0.0
  9
$PUCSORTHOREF
  2

  9
$PUCSORTHOVIEW
 70
     0
  9
$PUCSORGTOP
 10
0.0
 20
0.0
 30
0.0
  9
$PUCSORGBOTTOM
 10
0.0
 20
0.0
 30
0.0
  9
$PUCSORGLEFT
 10
0.0
 20
0.0
 30
0.0
  9
$PUCSORGRIGHT
 10
0.0
 20
0.0
 30
0.0
  9
$PUCSORGFRONT
 10
0.0
 20
0.0
 30
0.0
  9
$PUCSORGBACK
 10
0.0
 20
0.0
 30
0.0
  9
$USERI1
 70
     0
  9
$USERI2
 70
     0
  9
$USERI3
 70
     0
  9
$USERI4
 70
     0
  9
$USERI5
 70
     0
  9
$USERR1
 40
0.0
  9
$USERR2
 40
0.0
  9
$USERR3
 40
0.0
  9
$USERR4
 40
0.0
  9
$USERR5
 40
0.0
  9
$WORLDVIEW
 70
     1
  9
$SHADEDGE
 70
     3
  9
$SHADEDIF
 70
    70
  9
$TILEMODE
 70
     1
  9
$MAXACTVP
 70
    64
  9
$PINSBASE
 10
0.0
 20
0.0
 30
0.0
  9
$PLIMCHECK
 70
     0
  9
$PEXTMIN
 10
1.0000000000E+20
 20
1.0000000000E+20
 30
1.0000000000E+20
  9
$PEXTMAX
 10
-1.0000000000E+20
 20
-1.0000000000E+20
 30
-1.0000000000E+20
  9
$PLIMMIN
 10
0.0
 20
0.0
  9
$PLIMMAX
 10
420.0
 20
297.0
  9
$UNITMODE
 70
     0
  9
$VISRETAIN
 70
     1
  9
$PLINEGEN
 70
     0
  9
$PSLTSCALE
 70
     1
  9
$TREEDEPTH
 70
  3020
  9
$CMLSTYLE
  2
Standard
  9
$CMLJUST
 70
     0
  9
$CMLSCALE
 40
20.0
  9
$PROXYGRAPHICS
 70
     1
  9
$MEASUREMENT
 70
     1
  9
$CELWEIGHT
370
    -1
  9
$ENDCAPS
280
     0
  9
$JOINSTYLE
280
     0
  9
$LWDISPLAY
290
     1
  9
$INSUNITS
 70
     4
  9
$HYPERLINKBASE
  1

  9
$STYLESHEET
  1

  9
$XEDIT
290
     1
  9
$CEPSNTYPE
380
     0
  9
$PSTYLEMODE
290
     1
  9
$FINGERPRINTGUID
  2
{f47b822f-4c69-4416-9b60-bb267f5dfe83}
  9
$VERSIONGUID
  2
{FAEB1C32-E019-11D5-929B-00C0DF256EC4}
  9
$EXTNAMES
290
     1
  9
$PSVPSCALE
 40
0.0
  9
$OLESTARTUP
290
     0
  0
ENDSEC
  0
SECTION
  2
CLASSES
  0
CLASS
  1
ACDBDICTIONARYWDFLT
  2
AcDbDictionaryWithDefault
  3
ObjectDBX Classes
 90
        0
280
     0
281
     0
  0
CLASS
  1
VISUALSTYLE
  2
AcDbVisualStyle
  3
ObjectDBX Classes
 90
     4095
280
     0
281
     0
  0
CLASS
  1
MATERIAL
  2
AcDbMaterial
  3
ObjectDBX Classes
 90
     1153
280
     0
281
     0
  0
CLASS
  1
SCALE
  2
AcDbScale
  3
ObjectDBX Classes
 90
     1153
280
     0
281
     0
  0
CLASS
  1
TABLESTYLE
  2
AcDbTableStyle
  3
ObjectDBX Classes
 90
     4095
280
     0
281
     0
  0
CLASS
  1
MLEADERSTYLE
  2
AcDbMLeaderStyle
  3
ACDB_MLEADERSTYLE_CLASS
 90
     4095
280
     0
281
     0
  0
CLASS
  1
SUN
  2
AcDbSun
  3
SCENEOE
 90
     1153
280
     0
281
     0
  0
CLASS
  1
ACDBPLACEHOLDER
  2
AcDbPlaceHolder
  3
ObjectDBX Classes
 90
        0
280
     0
281
     0
  0
CLASS
  1
LAYOUT
  2
AcDbLayout
  3
ObjectDBX Classes
 90
        0
280
     0
281
     0
  0
ENDSEC
  0
SECTION
  2
TABLES
  0
TABLE
  2
VPORT
  5
8
330
0
100
AcDbSymbolTable
 70
     1
  0
VPORT
  5
29
330
8
100
AcDbSymbolTableRecord
100
AcDbViewportTableRecord
  2
*Active
 70
     0
 10
0.0
 20
0.0
 11
1.0
 21
1.0
 12
139.7
 22
107.95
 13
0.0
 23
0.0
 14
10.0
 24
10.0
 15
10.0
 25
10.0
 16
0.0
 26
0.0
 36
1.0
 17
0.0
 27
0.0
 37
0.0
 40
215.9
 41
1.2941176471
 42
50.0
 43
0.0
 44
0.0
 50
0.0
 51
0.0
 71
     0
 72
  2000
 73
     1
 74
     3
 75
     0
 76
     0
 77
     0
 78
     0
281
     0
 65
     1
110
0.0
120
0.0
130
0.0
111
1.0
121
0.0
131
0.0
112
0.0
122
1.0
132
0.0
 79
     0
146
0.0
  0
ENDTAB
  0
TABLE
  2
LTYPE
  5
5
330
0
100
AcDbSymbolTable
 70
     6
  0
LTYPE
  5
14
330
5
100
AcDbSymbolTableRecord
100
AcDbLinetypeTableRecord
  2
ByBlock
 70
     0
  3

 72
    65
 73
     0
 40
0.0
  0
LTYPE
  5
15
330
5
100
AcDbSymbolTableRecord
100
AcDbLinetypeTableRecord
  2
ByLayer
 70
     0
  3

 72
    65
 73
     0
 40
0.0
  0
LTYPE
  5
16
330
5
100
AcDbSymbolTableRecord
100
AcDbLinetypeTableRecord
  2
Continuous
 70
     0
  3
Solid line
 72
    65
 73
     0
 40
0.0
  0
LTYPE
  5
6E
330
5
100
AcDbSymbolTableRecord
100
AcDbLinetypeTableRecord
  2
HIDDEN
 70
     0
  3
Hidden __ __ __ __ __ __ __ __ __ __ __ __ __ __
 72
    65
 73
     2
 40
1.905
 49
1.27
 74
     0
 49
-0.635
 74
     0
  0
LTYPE
  5
6F
330
5
100
AcDbSymbolTableRecord
100
AcDbLinetypeTableRecord
  2
PHANTOM
 70
     0
  3
Phantom ______  __  __  ______  __  __  ______
 72
    65
 73
     6
 40
12.7
 49
6.35
 74
     0
 49
-1.27
 74
     0
 49
1.27
 74
     0
 49
-1.27
 74
     0
 49
1.27
 74
     0
 49
-1.27
 74
     0
  0
LTYPE
  5
70
330
5
100
AcDbSymbolTableRecord
100
AcDbLinetypeTableRecord
  2
CENTER
 70
     0
  3
Center ____ _ ____ _ ____ _ ____ _ ____ _ ____
 72
    65
 73
     4
 40
10.16
 49
6.35
 74
     0
 49
-1.27
 74
     0
 49
1.27
 74
     0
 49
-1.27
 74
     0
  0
LTYPE
  5
71
330
5
100
AcDbSymbolTableRecord
100
AcDbLinetypeTableRecord
  2
CENTERX2
 70
     0
  3
Center (2x) ________  __  ________  __  _____
 72
    65
 73
     4
 40
20.32
 49
12.7
 74
     0
 49
-2.54
 74
     0
 49
2.54
 74
     0
 49
-2.54
 74
     0
  0
LTYPE
  5
72
330
5
100
AcDbSymbolTableRecord
100
AcDbLinetypeTableRecord
  2
DOT2
 70
     0
  3
Dot (.5x) ........................................
 72
    65
 73
     2
 40
0.635
 49
0.0
 74
     0
 49
-0.635
 74
     0
  0
ENDTAB
  0
TABLE
  2
LAYER
  5
2
330
0
100
AcDbSymbolTable
 70
    17
  0
LAYER
  5
10
330
2
100
AcDbSymbolTableRecord
100
AcDbLayerTableRecord
  2
0
 70
     0
 62
     7
  6
Continuous
370
    -3
390
F
  0
LAYER
  5
73
330
2
100
AcDbSymbolTableRecord
100
AcDbLayerTableRecord
  2
FORMAT
 70
     0
 62
     7
  6
Continuous
370
    -3
390
F
  0
LAYER
  5
74
330
2
100
AcDbSymbolTableRecord
100
AcDbLayerTableRecord
  2
YARDIMCI_GEOMETRI
 70
     0
 62
    -6
  6
Continuous
290
     0
370
    -3
390
F
  0
LAYER
  5
75
330
2
100
AcDbSymbolTableRecord
100
AcDbLayerTableRecord
  2
SAYFA_CERCEVESI
 70
     0
 62
     7
  6
Continuous
370
    25
390
F
  0
LAYER
  5
76
330
2
100
AcDbSymbolTableRecord
100
AcDbLayerTableRecord
  2
ANTET
 70
     0
 62
     7
  6
Continuous
370
    -3
390
F
  0
LAYER
  5
77
330
2
100
AcDbSymbolTableRecord
100
AcDbLayerTableRecord
  2
OLCU
 70
     0
 62
   150
  6
Continuous
370
    -3
390
F
  0
LAYER
  5
78
330
2
100
AcDbSymbolTableRecord
100
AcDbLayerTableRecord
  2
METIN
 70
     0
 62
    96
  6
Continuous
370
    -3
390
F
  0
LAYER
  5
79
330
2
100
AcDbSymbolTableRecord
100
AcDbLayerTableRecord
  2
BALON
 70
     0
 62
     5
  6
Continuous
370
    -3
390
F
  0
LAYER
  5
7A
330
2
100
AcDbSymbolTableRecord
100
AcDbLayerTableRecord
  2
VURGU
 70
     0
 62
     7
  6
Continuous
370
    -3
390
F
  0
LAYER
  5
7B
330
2
100
AcDbSymbolTableRecord
100
AcDbLayerTableRecord
  2
SILIK
 70
     0
 62
     7
  6
Continuous
370
    -3
390
F
  0
LAYER
  5
7C
330
2
100
AcDbSymbolTableRecord
100
AcDbLayerTableRecord
  2
MODEL
 70
     0
 62
     7
  6
Continuous
370
    -3
390
F
  0
LAYER
  5
7D
330
2
100
AcDbSymbolTableRecord
100
AcDbLayerTableRecord
  2
DETAYLANDıRMA
 70
     0
 62
   190
  6
Continuous
370
    -3
390
F
  0
LAYER
  5
7E
330
2
100
AcDbSymbolTableRecord
100
AcDbLayerTableRecord
  2
TOLERANS
 70
     0
 62
   230
  6
Continuous
370
    -3
390
F
  0
LAYER
  5
7F
330
2
100
AcDbSymbolTableRecord
100
AcDbLayerTableRecord
  2
MERKEZ_CIZGILERI
 70
     0
 62
    30
  6
Continuous
370
    -3
390
F
  0
LAYER
  5
80
330
2
100
AcDbSymbolTableRecord
100
AcDbLayerTableRecord
  2
KESIT-DETAY_CIZGILERI
 70
     0
 62
     7
  6
Continuous
370
    -3
390
F
  0
LAYER
  5
81
330
2
100
AcDbSymbolTableRecord
100
AcDbLayerTableRecord
  2
\U+041E\U+0421\U+0415\U+0412\U+042B\U+0415
 70
     0
 62
     7
  6
Continuous
370
    -3
390
F
  0
LAYER
  5
82
330
2
100
AcDbSymbolTableRecord
100
AcDbLayerTableRecord
  2
\U+0412\U+041E\U+0414\U+042F\U+041D\U+042B\U+0415_\U+0417\U+041D\U+0410\U+041A\U+0418
 70
     0
 62
    11
  6
Continuous
370
    -3
390
F
  0
ENDTAB
  0
TABLE
  2
STYLE
  5
3
330
0
100
AcDbSymbolTable
 70
     1
  0
STYLE
  5
11
330
3
100
AcDbSymbolTableRecord
100
AcDbTextStyleTableRecord
  2
Standard
 70
     0
 40
0.0
 41
1.0
 50
0.0
 71
     0
 42
3.5
  3
txt
  4

  0
ENDTAB
  0
TABLE
  2
VIEW
  5
6
330
0
100
AcDbSymbolTable
 70
     0
  0
ENDTAB
  0
TABLE
  2
UCS
  5
7
330
0
100
AcDbSymbolTable
 70
     0
  0
ENDTAB
  0
TABLE
  2
APPID
  5
9
330
0
100
AcDbSymbolTable
 70
     1
  0
APPID
  5
12
330
9
100
AcDbSymbolTableRecord
100
AcDbRegAppTableRecord
  2
ACAD
 70
     0
  0
ENDTAB
  0
TABLE
  2
DIMSTYLE
  5
A
330
0
100
AcDbSymbolTable
 70
     1
100
AcDbDimStyleTable
  0
DIMSTYLE
105
27
330
A
100
AcDbSymbolTableRecord
100
AcDbDimStyleTableRecord
  2
ISO-25
 70
     0
 41
2.5
 42
0.625
 43
3.75
 44
1.25
 73
     0
 74
     0
 77
     1
 78
     8
140
2.5
141
2.5
143
0.0393700787
147
0.625
171
     3
172
     1
178
     0
271
     2
272
     2
274
     3
278
    44
283
     0
284
     8
340
11
  0
ENDTAB
  0
TABLE
  2
BLOCK_RECORD
  5
1
330
0
100
AcDbSymbolTable
 70
     2
  0
BLOCK_RECORD
  5
1F
330
1
100
AcDbSymbolTableRecord
100
AcDbBlockTableRecord
  2
*Model_Space
340
22
  0
BLOCK_RECORD
  5
1B
330
1
100
AcDbSymbolTableRecord
100
AcDbBlockTableRecord
  2
*Paper_Space
340
1E
  0
BLOCK_RECORD
  5
23
330
1
100
AcDbSymbolTableRecord
100
AcDbBlockTableRecord
  2
*Paper_Space0
340
26
  0
BLOCK_RECORD
  5
88
330
1
100
AcDbSymbolTableRecord
100
AcDbBlockTableRecord
  2
SW_CENTERMARKSYMBOL_0
340
0
102
{BLKREFS
331
93
102
}
  0
ENDTAB
  0
ENDSEC
  0
SECTION
  2
BLOCKS
  0
BLOCK
  5
20
330
1F
100
AcDbEntity
  8
0
100
AcDbBlockBegin
  2
*Model_Space
 70
     0
 10
0.0
 20
0.0
 30
0.0
  3
*Model_Space
  1

  0
ENDBLK
  5
21
330
1F
100
AcDbEntity
  8
0
100
AcDbBlockEnd
  0
BLOCK
  5
1C
330
1B
100
AcDbEntity
 67
     1
  8
0
100
AcDbBlockBegin
  2
*Paper_Space
 70
     0
 10
0.0
 20
0.0
 30
0.0
  3
*Paper_Space
  1

  0
ENDBLK
  5
1D
330
1B
100
AcDbEntity
 67
     1
  8
0
100
AcDbBlockEnd
  0
BLOCK
  5
24
330
23
100
AcDbEntity
  8
0
100
AcDbBlockBegin
  2
*Paper_Space0
 70
     0
 10
0.0
 20
0.0
 30
0.0
  3
*Paper_Space0
  1

  0
ENDBLK
  5
25
330
23
100
AcDbEntity
  8
0
100
AcDbBlockEnd
  0
BLOCK
  5
89
330
88
100
AcDbEntity
  8
0
100
AcDbBlockBegin
  2
SW_CENTERMARKSYMBOL_0
 70
     0
 10
0.0
 20
0.0
 30
0.0
  3
SW_CENTERMARKSYMBOL_0
  1

  0
LINE
  5
8B
330
88
100
AcDbEntity
  8
FORMAT
 62
     0
100
AcDbLine
 10
0.0
 20
0.0
 30
0.0
 11
0.0
 21
2.5
 31
0.0
  0
LINE
  5
8C
330
88
100
AcDbEntity
  8
FORMAT
 62
     0
100
AcDbLine
 10
0.0
 20
0.0
 30
0.0
 11
-2.5
 21
0.0
 31
0.0
  0
LINE
  5
8D
330
88
100
AcDbEntity
  8
FORMAT
 62
     0
100
AcDbLine
 10
0.0
 20
0.0
 30
0.0
 11
0.0
 21
-2.5
 31
0.0
  0
LINE
  5
8E
330
88
100
AcDbEntity
  8
FORMAT
 62
     0
100
AcDbLine
 10
0.0
 20
0.0
 30
0.0
 11
2.5
 21
0.0
 31
0.0
  0
LINE
  5
8F
330
88
100
AcDbEntity
  8
FORMAT
 62
     0
100
AcDbLine
 10
0.0
 20
5.0
 30
0.0
 11
0.0
 21
34.5
 31
0.0
  0
LINE
  5
90
330
88
100
AcDbEntity
  8
FORMAT
 62
     0
100
AcDbLine
 10
-5.0
 20
0.0
 30
0.0
 11
-34.5
 21
0.0
 31
0.0
  0
LINE
  5
91
330
88
100
AcDbEntity
  8
FORMAT
 62
     0
100
AcDbLine
 10
0.0
 20
-5.0
 30
0.0
 11
0.0
 21
-34.5
 31
0.0
  0
LINE
  5
92
330
88
100
AcDbEntity
  8
FORMAT
 62
     0
100
AcDbLine
 10
5.0
 20
0.0
 30
0.0
 11
34.5
 21
0.0
 31
0.0
  0
ENDBLK
  5
8A
330
88
100
AcDbEntity
  8
0
100
AcDbBlockEnd
  0
ENDSEC
  0
SECTION
  2
ENTITIES
  0
CIRCLE
  5
83
330
1F
100
AcDbEntity
  8
0
  6
Continuous
 62
     7
370
    25
100
AcDbCircle
 10
137.9424909615
 20
108.5958316346
 30
0.0
 40
24.14999999999998
  0
CIRCLE
  5
84
330
1F
100
AcDbEntity
  8
0
  6
Continuous
 62
     7
370
    25
100
AcDbCircle
 10
137.9424909615
 20
108.5958316346
 30
0.0
 40
20.54999999999998
  0
CIRCLE
  5
85
330
1F
100
AcDbEntity
  8
0
  6
Continuous
 62
     7
370
    25
100
AcDbCircle
 10
137.9424909615
 20
108.5958316346
 30
0.0
 40
26.64999999999998
  0
CIRCLE
  5
86
330
1F
100
AcDbEntity
  8
0
  6
Continuous
 62
     7
370
    25
100
AcDbCircle
 10
137.9424909615
 20
108.5958316346
 30
0.0
 40
31.99999999999997
  0
CIRCLE
  5
87
330
1F
100
AcDbEntity
  8
0
  6
Continuous
 62
     7
370
    25
100
AcDbCircle
 10
137.9424909615
 20
108.5958316346
 30
0.0
 40
20.40000000000001
  0
INSERT
  5
93
330
1F
100
AcDbEntity
  8
FORMAT
 62
     7
100
AcDbBlockReference
  2
SW_CENTERMARKSYMBOL_0
 10
137.9424909615
 20
108.5958316346
 30
0.0
  0
LINE
  5
94
330
1F
100
AcDbEntity
  8
0
  6
Continuous
 62
     7
370
    25
100
AcDbLine
 10
342.1305399508
 20
140.5958316346
 30
0.0
 11
323.1305399508
 21
133.5958316346
 31
0.0
  0
LINE
  5
95
330
1F
100
AcDbEntity
  8
0
  6
Continuous
 62
     7
370
    25
100
AcDbLine
 10
323.1305399508
 20
83.5958316346
 30
0.0
 11
342.1305399508
 21
76.5958316346
 31
0.0
  0
LINE
  5
96
330
1F
100
AcDbEntity
  8
0
  6
Continuous
 62
     7
370
    25
100
AcDbLine
 10
410.1305399508
 20
140.5958316346
 30
0.0
 11
342.1305399508
 21
140.5958316346
 31
0.0
  0
LINE
  5
97
330
1F
100
AcDbEntity
  8
0
  6
Continuous
 62
     7
370
    25
100
AcDbLine
 10
342.1305399508
 20
76.5958316346
 30
0.0
 11
410.1305399508
 21
76.5958316346
 31
0.0
  0
LINE
  5
98
330
1F
100
AcDbEntity
  8
0
  6
Continuous
 62
     7
370
    25
100
AcDbLine
 10
618.1305399508
 20
135.2458316346
 30
0.0
 11
410.1305399508
 21
135.2458316346
 31
0.0
  0
LINE
  5
99
330
1F
100
AcDbEntity
  8
0
  6
Continuous
 62
     7
370
    25
100
AcDbLine
 10
410.1305399508
 20
81.9458316346
 30
0.0
 11
618.1305399508
 21
81.9458316346
 31
0.0
  0
LINE
  5
9A
330
1F
100
AcDbEntity
  8
0
  6
Continuous
 62
     7
370
    25
100
AcDbLine
 10
323.1305399508
 20
133.5958316346
 30
0.0
 11
260.1305399508
 21
133.5958316346
 31
0.0
  0
LINE
  5
9B
330
1F
100
AcDbEntity
  8
0
  6
Continuous
 62
     7
370
    25
100
AcDbLine
 10
260.1305399508
 20
83.5958316346
 30
0.0
 11
323.1305399508
 21
83.5958316346
 31
0.0
  0
LINE
  5
9C
330
1F
100
AcDbEntity
  8
0
  6
Continuous
 62
     7
370
    25
100
AcDbLine
 10
668.1305399508
 20
132.7458316346
 30
0.0
 11
618.1305399508
 21
132.7458316346
 31
0.0
  0
LINE
  5
9D
330
1F
100
AcDbEntity
  8
0
  6
Continuous
 62
     7
370
    25
100
AcDbLine
 10
618.1305399508
 20
84.4458316346
 30
0.0
 11
668.1305399508
 21
84.4458316346
 31
0.0
  0
LINE
  5
9E
330
1F
100
AcDbEntity
  8
0
  6
Continuous
 62
     7
370
    25
100
AcDbLine
 10
323.1305399508
 20
133.5958316346
 30
0.0
 11
323.1305399508
 21
83.5958316346
 31
0.0
  0
LINE
  5
9F
330
1F
100
AcDbEntity
  8
0
  6
Continuous
 62
     7
370
    25
100
AcDbLine
 10
342.1305399508
 20
140.5958316346
 30
0.0
 11
342.1305399508
 21
76.5958316346
 31
0.0
  0
LINE
  5
A0
330
1F
100
AcDbEntity
  8
0
  6
Continuous
 62
     7
370
    25
100
AcDbLine
 10
410.1305399508
 20
140.5958316346
 30
0.0
 11
410.1305399508
 21
76.5958316346
 31
0.0
  0
LINE
  5
A1
330
1F
100
AcDbEntity
  8
0
  6
Continuous
 62
     7
370
    25
100
AcDbLine
 10
618.1305399508
 20
135.2458316346
 30
0.0
 11
618.1305399508
 21
81.9458316346
 31
0.0
  0
LINE
  5
A2
330
1F
100
AcDbEntity
  8
0
  6
Continuous
 62
     7
370
    25
100
AcDbLine
 10
260.1305399508
 20
133.5958316346
 30
0.0
 11
260.1305399508
 21
83.5958316346
 31
0.0
  0
LINE
  5
A3
330
1F
100
AcDbEntity
  8
0
  6
Continuous
 62
     7
370
    25
100
AcDbLine
 10
668.1305399508
 20
132.7458316346
 30
0.0
 11
668.1305399508
 21
84.4458316346
 31
0.0
  0
LINE
  5
A4
330
1F
100
AcDbEntity
  8
0
  6
Continuous
 62
     7
370
    25
100
AcDbLine
 10
-55.4129198965
 20
76.5958316346
 30
0.0
 11
-36.4129198965
 21
83.5958316346
 31
0.0
  0
LINE
  5
A5
330
1F
100
AcDbEntity
  8
0
  6
Continuous
 62
     7
370
    25
100
AcDbLine
 10
-36.4129198965
 20
133.5958316346
 30
0.0
 11
-55.4129198965
 21
140.5958316346
 31
0.0
  0
LINE
  5
A6
330
1F
100
AcDbEntity
  8
0
  6
Continuous
 62
     7
370
    25
100
AcDbLine
 10
-123.4129198965
 20
76.5958316346
 30
0.0
 11
-55.4129198965
 21
76.5958316346
 31
0.0
  0
LINE
  5
A7
330
1F
100
AcDbEntity
  8
0
  6
Continuous
 62
     7
370
    25
100
AcDbLine
 10
-55.4129198965
 20
140.5958316346
 30
0.0
 11
-123.4129198965
 21
140.5958316346
 31
0.0
  0
LINE
  5
A8
330
1F
100
AcDbEntity
  8
0
  6
Continuous
 62
     7
370
    25
100
AcDbLine
 10
-331.4129198965
 20
81.9458316346
 30
0.0
 11
-123.4129198965
 21
81.9458316346
 31
0.0
  0
LINE
  5
A9
330
1F
100
AcDbEntity
  8
0
  6
Continuous
 62
     7
370
    25
100
AcDbLine
 10
-123.4129198965
 20
135.2458316346
 30
0.0
 11
-331.4129198965
 21
135.2458316346
 31
0.0
  0
LINE
  5
AA
330
1F
100
AcDbEntity
  8
0
  6
Continuous
 62
     7
370
    25
100
AcDbLine
 10
-36.4129198965
 20
83.5958316346
 30
0.0
 11
26.5870801035
 21
83.5958316346
 31
0.0
  0
LINE
  5
AB
330
1F
100
AcDbEntity
  8
0
  6
Continuous
 62
     7
370
    25
100
AcDbLine
 10
26.5870801035
 20
133.5958316346
 30
0.0
 11
-36.4129198965
 21
133.5958316346
 31
0.0
  0
LINE
  5
AC
330
1F
100
AcDbEntity
  8
0
  6
Continuous
 62
     7
370
    25
100
AcDbLine
 10
-381.4129198965
 20
84.4458316346
 30
0.0
 11
-331.4129198965
 21
84.4458316346
 31
0.0
  0
LINE
  5
AD
330
1F
100
AcDbEntity
  8
0
  6
Continuous
 62
     7
370
    25
100
AcDbLine
 10
-331.4129198965
 20
132.7458316346
 30
0.0
 11
-381.4129198965
 21
132.7458316346
 31
0.0
  0
LINE
  5
AE
330
1F
100
AcDbEntity
  8
0
  6
Continuous
 62
     7
370
    25
100
AcDbLine
 10
-36.4129198965
 20
108.5958316346
 30
0.0
 11
-36.4129198965
 21
133.5958316346
 31
0.0
  0
LINE
  5
AF
330
1F
100
AcDbEntity
  8
0
  6
Continuous
 62
     7
370
    25
100
AcDbLine
 10
-36.4129198965
 20
83.5958316346
 30
0.0
 11
-36.4129198965
 21
108.5958316346
 31
0.0
  0
LINE
  5
B0
330
1F
100
AcDbEntity
  8
0
  6
Continuous
 62
     7
370
    25
100
AcDbLine
 10
-55.4129198965
 20
108.5958316346
 30
0.0
 11
-55.4129198965
 21
140.5958316346
 31
0.0
  0
LINE
  5
B1
330
1F
100
AcDbEntity
  8
0
  6
Continuous
 62
     7
370
    25
100
AcDbLine
 10
-55.4129198965
 20
76.5958316346
 30
0.0
 11
-55.4129198965
 21
108.5958316346
 31
0.0
  0
LINE
  5
B2
330
1F
100
AcDbEntity
  8
0
  6
Continuous
 62
     7
370
    25
100
AcDbLine
 10
-123.4129198965
 20
108.5958316346
 30
0.0
 11
-123.4129198965
 21
140.5958316346
 31
0.0
  0
LINE
  5
B3
330
1F
100
AcDbEntity
  8
0
  6
Continuous
 62
     7
370
    25
100
AcDbLine
 10
-123.4129198965
 20
76.5958316346
 30
0.0
 11
-123.4129198965
 21
108.5958316346
 31
0.0
  0
LINE
  5
B4
330
1F
100
AcDbEntity
  8
0
  6
Continuous
 62
     7
370
    25
100
AcDbLine
 10
-331.4129198965
 20
108.5958316346
 30
0.0
 11
-331.4129198965
 21
135.2458316346
 31
0.0
  0
LINE
  5
B5
330
1F
100
AcDbEntity
  8
0
  6
Continuous
 62
     7
370
    25
100
AcDbLine
 10
-331.4129198965
 20
81.9458316346
 30
0.0
 11
-331.4129198965
 21
108.5958316346
 31
0.0
  0
LINE
  5
B6
330
1F
100
AcDbEntity
  8
0
  6
Continuous
 62
     7
370
    25
100
AcDbLine
 10
26.5870801035
 20
108.5958316346
 30
0.0
 11
26.5870801035
 21
133.5958316346
 31
0.0
  0
LINE
  5
B7
330
1F
100
AcDbEntity
  8
0
  6
Continuous
 62
     7
370
    25
100
AcDbLine
 10
26.5870801035
 20
83.5958316346
 30
0.0
 11
26.5870801035
 21
108.5958316346
 31
0.0
  0
LINE
  5
B8
330
1F
100
AcDbEntity
  8
0
  6
Continuous
 62
     7
370
    25
100
AcDbLine
 10
-381.4129198965
 20
108.5958316346
 30
0.0
 11
-381.4129198965
 21
132.7458316346
 31
0.0
  0
LINE
  5
B9
330
1F
100
AcDbEntity
  8
0
  6
Continuous
 62
     7
370
    25
100
AcDbLine
 10
-381.4129198965
 20
84.4458316346
 30
0.0
 11
-381.4129198965
 21
108.5958316346
 31
0.0
  0
LINE
  5
BA
330
1F
100
AcDbEntity
  8
0
  6
Continuous
 62
     7
370
    25
100
AcDbLine
 10
105.9424909615
 20
279.7933216752
 30
0.0
 11
112.9424909615
 21
260.7933216752
 31
0.0
  0
LINE
  5
BB
330
1F
100
AcDbEntity
  8
0
  6
Continuous
 62
     7
370
    25
100
AcDbLine
 10
162.9424909615
 20
260.7933216752
 30
0.0
 11
169.9424909615
 21
279.7933216752
 31
0.0
  0
LINE
  5
BC
330
1F
100
AcDbEntity
  8
0
  6
Continuous
 62
     7
370
    25
100
AcDbLine
 10
105.9424909615
 20
347.7933216752
 30
0.0
 11
105.9424909615
 21
279.7933216752
 31
0.0
  0
LINE
  5
BD
330
1F
100
AcDbEntity
  8
0
  6
Continuous
 62
     7
370
    25
100
AcDbLine
 10
169.9424909615
 20
279.7933216752
 30
0.0
 11
169.9424909615
 21
347.7933216752
 31
0.0
  0
LINE
  5
BE
330
1F
100
AcDbEntity
  8
0
  6
Continuous
 62
     7
370
    25
100
AcDbLine
 10
111.2924909615
 20
555.7933216752
 30
0.0
 11
111.2924909615
 21
347.7933216752
 31
0.0
  0
LINE
  5
BF
330
1F
100
AcDbEntity
  8
0
  6
Continuous
 62
     7
370
    25
100
AcDbLine
 10
164.5924909615
 20
347.7933216752
 30
0.0
 11
164.5924909615
 21
555.7933216752
 31
0.0
  0
LINE
  5
C0
330
1F
100
AcDbEntity
  8
0
  6
Continuous
 62
     7
370
    25
100
AcDbLine
 10
112.9424909615
 20
260.7933216752
 30
0.0
 11
112.9424909615
 21
197.7933216752
 31
0.0
  0
LINE
  5
C1
330
1F
100
AcDbEntity
  8
0
  6
Continuous
 62
     7
370
    25
100
AcDbLine
 10
162.9424909615
 20
197.7933216752
 30
0.0
 11
162.9424909615
 21
260.7933216752
 31
0.0
  0
LINE
  5
C2
330
1F
100
AcDbEntity
  8
0
  6
Continuous
 62
     7
370
    25
100
AcDbLine
 10
113.7924909615
 20
605.7933216752
 30
0.0
 11
113.7924909615
 21
555.7933216752
 31
0.0
  0
LINE
  5
C3
330
1F
100
AcDbEntity
  8
0
  6
Continuous
 62
     7
370
    25
100
AcDbLine
 10
162.0924909615
 20
555.7933216752
 30
0.0
 11
162.0924909615
 21
605.7933216752
 31
0.0
  0
LINE
  5
C4
330
1F
100
AcDbEntity
  8
0
  6
Continuous
 62
     7
370
    25
100
AcDbLine
 10
112.9424909615
 20
260.7933216752
 30
0.0
 11
162.9424909615
 21
260.7933216752
 31
0.0
  0
LINE
  5
C5
330
1F
100
AcDbEntity
  8
0
  6
Continuous
 62
     7
370
    25
100
AcDbLine
 10
105.9424909615
 20
279.7933216752
 30
0.0
 11
169.9424909615
 21
279.7933216752
 31
0.0
  0
LINE
  5
C6
330
1F
100
AcDbEntity
  8
0
  6
Continuous
 62
     7
370
    25
100
AcDbLine
 10
105.9424909615
 20
347.7933216752
 30
0.0
 11
169.9424909615
 21
347.7933216752
 31
0.0
  0
LINE
  5
C7
330
1F
100
AcDbEntity
  8
0
  6
Continuous
 62
     7
370
    25
100
AcDbLine
 10
111.2924909615
 20
555.7933216752
 30
0.0
 11
164.5924909615
 21
555.7933216752
 31
0.0
  0
LINE
  5
C8
330
1F
100
AcDbEntity
  8
0
  6
Continuous
 62
     7
370
    25
100
AcDbLine
 10
112.9424909615
 20
197.7933216752
 30
0.0
 11
162.9424909615
 21
197.7933216752
 31
0.0
  0
LINE
  5
C9
330
1F
100
AcDbEntity
  8
0
  6
Continuous
 62
     7
370
    25
100
AcDbLine
 10
113.7924909615
 20
605.7933216752
 30
0.0
 11
162.0924909615
 21
605.7933216752
 31
0.0
  0
LINE
  5
CA
330
1F
100
AcDbEntity
  8
0
  6
Continuous
 62
     7
370
    25
100
AcDbLine
 10
169.9424909615
 20
-67.2598111173
 30
0.0
 11
162.9424909615
 21
-48.2598111173
 31
0.0
  0
LINE
  5
CB
330
1F
100
AcDbEntity
  8
0
  6
Continuous
 62
     7
370
    25
100
AcDbLine
 10
112.9424909615
 20
-48.2598111173
 30
0.0
 11
105.9424909615
 21
-67.2598111173
 31
0.0
  0
LINE
  5
CC
330
1F
100
AcDbEntity
  8
0
  6
Continuous
 62
     7
370
    25
100
AcDbLine
 10
169.9424909615
 20
-135.2598111173
 30
0.0
 11
169.9424909615
 21
-67.2598111173
 31
0.0
  0
LINE
  5
CD
330
1F
100
AcDbEntity
  8
0
  6
Continuous
 62
     7
370
    25
100
AcDbLine
 10
105.9424909615
 20
-67.2598111173
 30
0.0
 11
105.9424909615
 21
-135.2598111173
 31
0.0
  0
LINE
  5
CE
330
1F
100
AcDbEntity
  8
0
  6
Continuous
 62
     7
370
    25
100
AcDbLine
 10
164.5924909615
 20
-343.2598111173
 30
0.0
 11
164.5924909615
 21
-135.2598111173
 31
0.0
  0
LINE
  5
CF
330
1F
100
AcDbEntity
  8
0
  6
Continuous
 62
     7
370
    25
100
AcDbLine
 10
111.2924909615
 20
-135.2598111173
 30
0.0
 11
111.2924909615
 21
-343.2598111173
 31
0.0
  0
LINE
  5
D0
330
1F
100
AcDbEntity
  8
0
  6
Continuous
 62
     7
370
    25
100
AcDbLine
 10
162.9424909615
 20
-48.2598111173
 30
0.0
 11
162.9424909615
 21
14.7401888827
 31
0.0
  0
LINE
  5
D1
330
1F
100
AcDbEntity
  8
0
  6
Continuous
 62
     7
370
    25
100
AcDbLine
 10
112.9424909615
 20
14.7401888827
 30
0.0
 11
112.9424909615
 21
-48.2598111173
 31
0.0
  0
LINE
  5
D2
330
1F
100
AcDbEntity
  8
0
  6
Continuous
 62
     7
370
    25
100
AcDbLine
 10
162.0924909615
 20
-393.2598111173
 30
0.0
 11
162.0924909615
 21
-343.2598111173
 31
0.0
  0
LINE
  5
D3
330
1F
100
AcDbEntity
  8
0
  6
Continuous
 62
     7
370
    25
100
AcDbLine
 10
113.7924909615
 20
-343.2598111173
 30
0.0
 11
113.7924909615
 21
-393.2598111173
 31
0.0
  0
LINE
  5
D4
330
1F
100
AcDbEntity
  8
0
  6
Continuous
 62
     7
370
    25
100
AcDbLine
 10
162.9424909615
 20
-48.2598111173
 30
0.0
 11
112.9424909615
 21
-48.2598111173
 31
0.0
  0
LINE
  5
D5
330
1F
100
AcDbEntity
  8
0
  6
Continuous
 62
     7
370
    25
100
AcDbLine
 10
169.9424909615
 20
-67.2598111173
 30
0.0
 11
105.9424909615
 21
-67.2598111173
 31
0.0
  0
LINE
  5
D6
330
1F
100
AcDbEntity
  8
0
  6
Continuous
 62
     7
370
    25
100
AcDbLine
 10
169.9424909615
 20
-135.2598111173
 30
0.0
 11
105.9424909615
 21
-135.2598111173
 31
0.0
  0
LINE
  5
D7
330
1F
100
AcDbEntity
  8
0
  6
Continuous
 62
     7
370
    25
100
AcDbLine
 10
164.5924909615
 20
-343.2598111173
 30
0.0
 11
111.2924909615
 21
-343.2598111173
 31
0.0
  0
LINE
  5
D8
330
1F
100
AcDbEntity
  8
0
  6
Continuous
 62
     7
370
    25
100
AcDbLine
 10
162.9424909615
 20
14.7401888827
 30
0.0
 11
112.9424909615
 21
14.7401888827
 31
0.0
  0
LINE
  5
D9
330
1F
100
AcDbEntity
  8
0
  6
Continuous
 62
     7
370
    25
100
AcDbLine
 10
162.0924909615
 20
-393.2598111173
 30
0.0
 11
113.7924909615
 21
-393.2598111173
 31
0.0
  0
LINE
  5
DA
330
1F
100
AcDbEntity
  8
0
  6
Continuous
 62
     7
370
    25
100
AcDbLine
 10
247.8441063154
 20
-10.1397403364
 30
0.0
 11
283.1994453747
 21
-30.549943132
 31
0.0
  0
LINE
  5
DB
330
1F
100
AcDbEntity
  8
0
  6
Continuous
 62
     7
370
    25
100
AcDbLine
 10
307.3474827678
 20
11.280216921
 30
0.0
 11
271.9921437085
 21
31.6904197165
 31
0.0
  0
LINE
  5
DC
330
1F
100
AcDbEntity
  8
0
  6
Continuous
 62
     7
370
    25
100
AcDbLine
 10
281.9495469589
 20
-32.715065288
 30
0.0
 11
429.0277574457
 21
-117.6215089175
 31
0.0
  0
LINE
  5
DD
330
1F
100
AcDbEntity
  8
0
  6
Continuous
 62
     7
370
    25
100
AcDbLine
 10
455.6755916704
 20
-71.4611045526
 30
0.0
 11
308.5973811836
 21
13.4453390769
 31
0.0
  0
LINE
  5
DE
330
1F
100
AcDbEntity
  8
0
  6
Continuous
 62
     7
370
    25
100
AcDbLine
 10
426.3529748359
 20
-122.2548703313
 30
0.0
 11
474.4362359566
 21
-150.0127461332
 31
0.0
  0
LINE
  5
DF
330
1F
100
AcDbEntity
  8
0
  6
Continuous
 62
     7
370
    25
100
AcDbLine
 10
506.4336354009
 20
-94.5856189409
 30
0.0
 11
458.3503742802
 21
-66.8277431389
 31
0.0
  0
LINE
  5
E0
330
1F
100
AcDbEntity
  8
0
  6
Continuous
 62
     7
370
    25
100
AcDbLine
 10
479.1576429664
 20
-151.4622942724
 30
0.0
 11
495.0595795897
 21
-152.8387406426
 31
0.0
  0
LINE
  5
E1
330
1F
100
AcDbEntity
  8
0
  6
Continuous
 62
     7
370
    25
100
AcDbLine
 10
519.1942335864
 20
-111.0317638244
 30
0.0
 11
510.050000082
 21
-97.949363945
 31
0.0
  0
LINE
  5
E2
330
1F
100
AcDbEntity
  8
0
  6
Continuous
 62
     7
370
    25
100
AcDbLine
 10
493.0280654274
 20
-152.6628960042
 30
0.0
 11
535.9187075781
 21
-177.4231366813
 31
0.0
  0
LINE
  5
E3
330
1F
100
AcDbEntity
  8
0
  6
Continuous
 62
     7
370
    25
100
AcDbLine
 10
560.916675894
 20
-134.1206935623
 30
0.0
 11
518.0260337433
 21
-109.3604528852
 31
0.0
  0
LWPOLYLINE
  5
E4
330
1F
100
AcDbEntity
  8
0
  6
Continuous
 62
     7
370
    25
100
AcDbPolyline
 90
       58
 70
   128
 43
0.0
 10
276.9947537776
 20
20.6334676403
 10
276.8911102073
 20
22.7429382611
 10
276.5814375889
 20
24.7071384469
 10
276.0694949286
 20
26.5022254684
 10
275.3614965167
 20
28.1064094007
 10
274.4660364949
 20
29.500217624
 10
273.3939845348
 20
30.6667311946
 10
272.158353895
 20
31.591790218
 10
270.7741434576
 20
32.2641657306
 10
269.2581556622
 20
32.6756960046
 10
267.6287925471
 20
32.82138562
 10
265.9058323733
 20
32.6994661021
 10
264.1101895432
 20
32.3114173889
 10
262.2636607284
 20
31.6619498659
 10
260.3886602874
 20
30.7589471891
 10
258.5079481856
 20
29.6133705878
 10
256.6443537201
 20
28.23912581
 10
254.8204984034
 20
26.6528943259
 10
253.0585213683
 20
24.8739308367
 10
251.3798106291
 20
22.9238295495
 10
249.8047434602
 20
20.8262620522
 10
248.3524390435
 20
18.6066899728
 10
247.040526387
 20
16.2920559095
 10
245.8849303335
 20
13.9104563845
 10
244.8996782534
 20
11.4908007898
 10
244.0967297725
 20
9.0624604665
 10
243.4858315976
 20
6.6549121766
 10
243.0743992049
 20
4.2973802951
 10
242.8674268264
 20
2.0184820653
 10
242.8674268264
 20
-0.1541197752
 10
243.0743992049
 20
-2.1940527833
 10
243.4858315976
 20
-4.0765549355
 10
244.0967297725
 20
-5.7787752059
 10
244.8996782534
 20
-7.2800509463
 10
245.8849303335
 20
-8.5621587028
 10
247.040526387
 20
-9.6095354241
 10
248.3524390435
 20
-10.4094673756
 10
249.8047434602
 20
-10.952244467
 10
251.3798106291
 20
-11.2312781197
 10
253.0585213683
 20
-11.2431812432
 10
254.8204984034
 20
-10.9878093496
 10
256.6443537201
 20
-10.4682623078
 10
258.5079481856
 20
-9.6908467151
 10
260.3886602874
 20
-8.6649993437
 10
262.2636607284
 20
-7.403172591
 10
264.1101895432
 20
-5.9206833244
 10
265.9058323733
 20
-4.2355269555
 10
267.6287925471
 20
-2.3681589998
 10
269.2581556622
 20
-0.3412467747
 10
270.7741434576
 20
1.8206057513
 10
272.158353895
 20
4.0911566168
 10
273.3939845348
 20
6.4428444102
 10
274.4660364949
 20
8.8471228273
 10
275.3614965167
 20
11.2748071851
 10
276.0694949286
 20
13.6964286842
 10
276.5814375889
 20
16.0825921198
 10
276.8911102073
 20
18.4043327004
 10
276.9947537776
 20
20.6334676403
  0
LWPOLYLINE
  5
E5
330
1F
100
AcDbEntity
  8
0
  6
Continuous
 62
     7
370
    25
100
AcDbPolyline
 90
       54
 70
   128
 43
0.0
 10
274.4491693653
 20
19.163933039
 10
274.3471773602
 20
21.0896679069
 10
274.0426330889
 20
22.870612216
 10
273.5398116856
 20
24.4817654119
 10
272.8457716605
 20
25.9005104356
 10
271.9702558142
 20
27.1069312168
 10
270.92555447
 20
28.0840922522
 10
269.7263329448
 20
28.8182763429
 10
268.3894256801
 20
29.2991771537
 10
266.9335999233
 20
29.5200438911
 10
265.3792922769
 20
29.4777760705
 10
263.7483218131
 20
29.1729670394
 10
262.0635837821
 20
28.6098956484
 10
260.3487282129
 20
27.7964661855
 10
258.6278279186
 20
26.7440974174
 10
256.9250405672
 20
25.4675622948
 10
255.2642695604
 20
23.9847805725
 10
253.6688284828
 20
22.3165672558
 10
252.1611138299
 20
20.4863404026
 10
250.7622906103
 20
18.5197923863
 10
249.4919952359
 20
16.4445292301
 10
248.3680598693
 20
14.2896830798
 10
247.4062620991
 20
12.0855032519
 10
246.620103458
 20
9.8629315994
 10
246.0206198898
 20
7.6531681566
 10
245.6162268298
 20
5.4872331582
 10
245.4126010702
 20
3.3955315838
 10
245.4126010702
 20
1.4074263384
 10
245.6162268298
 20
-0.4491739381
 10
246.0206198898
 20
-2.1482066478
 10
246.620103458
 20
-3.6658210957
 10
247.4062620991
 20
-4.9807133015
 10
248.3680598693
 20
-6.074425061
 10
249.4919952359
 20
-6.9316030586
 10
250.7622906103
 20
-7.5402143941
 10
252.1611138299
 20
-7.8917154984
 10
253.6688284828
 20
-7.9811720666
 10
255.2642695604
 20
-7.8073283244
 10
256.9250405672
 20
-7.3726246571
 10
258.6278279186
 20
-6.6831633512
 10
260.3487282129
 20
-5.7486229321
 10
262.0635837821
 20
-4.5821222987
 10
263.7483218131
 20
-3.200036563
 10
265.3792922769
 20
-1.6217671791
 10
266.9335999233
 20
0.1305304105
 10
268.3894256801
 20
2.0322577886
 10
269.7263329448
 20
4.0567188716
 10
270.92555447
 20
6.1754946634
 10
271.9702558142
 20
8.3588421964
 10
272.8457716605
 20
10.5761120573
 10
273.5398116856
 20
12.7961786373
 10
274.0426330889
 20
14.9878770683
 10
274.3471773602
 20
17.1204407085
 10
274.4491693653
 20
19.163933039
  0
LWPOLYLINE
  5
E6
330
1F
100
AcDbEntity
  8
0
  6
Continuous
 62
     7
370
    25
100
AcDbPolyline
 90
        9
 70
   128
 43
0.0
 10
312.3500928369
 20
0.2232648447
 10
312.2464492666
 20
2.3327354655
 10
311.9367766483
 20
4.2969356514
 10
311.4248339879
 20
6.0920226728
 10
310.7168355761
 20
7.6962066052
 10
309.8213755542
 20
9.0900148285
 10
308.7493235942
 20
10.2565283991
 10
307.5136929544
 20
11.1815874224
 10
307.3474827678
 20
11.280216921
  0
LWPOLYLINE
  5
E7
330
1F
100
AcDbEntity
  8
0
  6
Continuous
 62
     7
370
    25
100
AcDbPolyline
 90
       23
 70
   128
 43
0.0
 10
283.1994453747
 20
-30.549943132
 10
283.7077781028
 20
-30.8196701711
 10
285.1600825196
 20
-31.3624472626
 10
286.7351496884
 20
-31.6414809153
 10
288.4138604276
 20
-31.6533840387
 10
290.1758374627
 20
-31.3980121452
 10
291.9996927795
 20
-30.8784651034
 10
293.8632872449
 20
-30.1010495107
 10
295.7439993468
 20
-29.0752021392
 10
297.6189997878
 20
-27.8133753865
 10
299.4655286025
 20
-26.33088612
 10
301.2611714326
 20
-24.6457297511
 10
302.9841316064
 20
-22.7783617954
 10
304.6134947216
 20
-20.7514495702
 10
306.129482517
 20
-18.5895970443
 10
307.5136929544
 20
-16.3190461788
 10
308.7493235942
 20
-13.9673583854
 10
309.8213755542
 20
-11.5630799682
 10
310.7168355761
 20
-9.1353956104
 10
311.4248339879
 20
-6.7137741114
 10
311.9367766483
 20
-4.3276106757
 10
312.2464492666
 20
-2.0058700952
 10
312.3500928369
 20
0.2232648447
  0
LWPOLYLINE
  5
E8
330
1F
100
AcDbEntity
  8
0
  6
Continuous
 62
     7
370
    25
100
AcDbPolyline
 90
        9
 70
   128
 43
0.0
 10
461.1960702767
 20
-83.662668645
 10
461.0928387052
 20
-81.4476386584
 10
460.7842750175
 20
-79.3760656392
 10
460.2737599019
 20
-77.470646175
 10
459.5668866688
 20
-75.7522564401
 10
458.6713999694
 20
-74.2397234722
 10
457.5971109432
 20
-72.9496188988
 10
456.3557897256
 20
-71.8960773757
 10
455.6755916704
 20
-71.4611045526
  0
LWPOLYLINE
  5
E9
330
1F
100
AcDbEntity
  8
0
  6
Continuous
 62
     7
370
    25
100
AcDbPolyline
 90
       24
 70
   128
 43
0.0
 10
429.0277574457
 20
-117.6215089175
 10
429.7423126244
 20
-117.9919717458
 10
431.2752166663
 20
-118.540477004
 10
432.9294766988
 20
-118.8260423305
 10
434.6869683027
 20
-118.845539012
 10
436.5284360323
 20
-118.5987534386
 10
438.4337043818
 20
-118.0883894448
 10
440.3818988324
 20
-117.3200386853
 10
442.3516745581
 20
-116.3021193718
 10
444.3214502837
 20
-115.0457840413
 10
446.2696447344
 20
-113.5647973667
 10
448.1749130838
 20
-111.8753853477
 10
450.0163808134
 20
-109.996057536
 10
451.7738724174
 20
-107.9474042405
 10
453.4281324498
 20
-105.7518709353
 10
454.9610364917
 20
-103.4335123427
 10
456.3557897256
 20
-101.0177288847
 10
457.5971109432
 20
-98.5309883904
 10
458.6713999694
 20
-96.0005361089
 10
459.5668866688
 20
-93.4540962051
 10
460.2737599019
 20
-90.9195680073
 10
460.7842750175
 20
-88.4247203369
 10
461.0928387052
 20
-85.9968872671
 10
461.1960702767
 20
-83.662668645
  0
LWPOLYLINE
  5
EA
330
1F
100
AcDbEntity
  8
0
  6
Continuous
 62
     7
370
    25
100
AcDbPolyline
 90
       13
 70
   128
 43
0.0
 10
314.1178597899
 20
1.2437749845
 10
314.0146282184
 20
3.4588049712
 10
313.7060645307
 20
5.5303779904
 10
313.1955494151
 20
7.4357974546
 10
312.488676182
 20
9.1541871894
 10
311.5931894826
 20
10.6667201574
 10
310.5189004564
 20
11.9568247308
 10
309.2775792388
 20
13.0103662538
 10
307.8828260049
 20
13.8158019052
 10
306.349921963
 20
14.3643071634
 10
304.6956619306
 20
14.6498724899
 10
302.9381703266
 20
14.6693691714
 10
301.7123110519
 20
14.5333323081
  0
LWPOLYLINE
  5
EB
330
1F
100
AcDbEntity
  8
0
  6
Continuous
 62
     7
370
    25
100
AcDbPolyline
 90
       28
 70
   128
 43
0.0
 10
277.5642736588
 20
-27.2968277449
 10
278.0582519605
 20
-28.4239134005
 10
278.95373866
 20
-29.9364463685
 10
280.0280276862
 20
-31.2265509418
 10
281.2693489037
 20
-32.2800924649
 10
282.6641021376
 20
-33.0855281163
 10
284.1970061795
 20
-33.6340333744
 10
285.8512662119
 20
-33.919598701
 10
287.6087578159
 20
-33.9390953824
 10
289.4502255455
 20
-33.6923098091
 10
291.355493895
 20
-33.1819458153
 10
293.3036883456
 20
-32.4135950558
 10
295.2734640713
 20
-31.3956757423
 10
297.2432397969
 20
-30.1393404118
 10
299.1914342476
 20
-28.6583537371
 10
301.096702597
 20
-26.9689417181
 10
302.9381703266
 20
-25.0896139065
 10
304.6956619306
 20
-23.0409606109
 10
306.349921963
 20
-20.8454273057
 10
307.8828260049
 20
-18.5270687132
 10
309.2775792388
 20
-16.1112852552
 10
310.5189004564
 20
-13.6245447608
 10
311.5931894826
 20
-11.0940924794
 10
312.488676182
 20
-8.5476525755
 10
313.1955494151
 20
-6.0131243777
 10
313.7060645307
 20
-3.5182767074
 10
314.0146282184
 20
-1.0904436376
 10
314.1178597899
 20
1.2437749845
  0
LWPOLYLINE
  5
EC
330
1F
100
AcDbEntity
  8
0
  6
Continuous
 62
     7
370
    25
100
AcDbPolyline
 90
       10
 70
   128
 43
0.0
 10
513.0623526767
 20
-109.2366527479
 10
512.9598939806
 20
-106.8120524534
 10
512.653445774
 20
-104.5277060072
 10
512.1457832993
 20
-102.4043008044
 10
511.4415040266
 20
-100.4610667314
 10
510.546986018
 20
-98.7156020168
 10
509.4703301671
 20
-97.1837138595
 10
508.221286836
 20
-95.8792752757
 10
506.8111675546
 20
-94.8140994632
 10
506.4336354009
 20
-94.5856189409
  0
LWPOLYLINE
  5
ED
330
1F
100
AcDbEntity
  8
0
  6
Continuous
 62
     7
370
    25
100
AcDbPolyline
 90
       26
 70
   128
 43
0.0
 10
474.4362359566
 20
-150.0127461332
 10
475.6171287762
 20
-150.6005322548
 10
477.3097461033
 20
-151.1604974931
 10
479.1212271798
 20
-151.4590901939
 10
481.0351669523
 20
-151.4936062554
 10
483.0342324861
 20
-151.2637330948
 10
485.100319934
 20
-150.7715524792
 10
487.2147184881
 20
-150.0215216723
 10
489.3582798278
 20
-149.0204330692
 10
491.5115915297
 20
-147.7773526835
 10
493.6551528694
 20
-146.3035380435
 10
495.7695514235
 20
-144.6123362429
 10
497.8356388714
 20
-142.719063067
 10
499.8347044052
 20
-140.640864291
 10
501.7486441777
 20
-138.3965604047
 10
503.5601252542
 20
-136.0064761717
 10
505.2527425813
 20
-133.492256565
 10
506.8111675546
 20
-130.8766707465
 10
508.221286836
 20
-128.1834058666
 10
509.4703301671
 20
-125.436852549
 10
510.546986018
 20
-122.6618840059
 10
511.4415040266
 20
-119.8836307821
 10
512.1457832993
 20
-117.1272531691
 10
512.653445774
 20
-114.4177133493
 10
512.9598939806
 20
-111.7795493349
 10
513.0623526767
 20
-109.2366527479
  0
LWPOLYLINE
  5
EE
330
1F
100
AcDbEntity
  8
0
  6
Continuous
 62
     7
370
    25
100
AcDbPolyline
 90
       16
 70
   128
 43
0.0
 10
464.979091556
 20
-81.4787769459
 10
464.8766328599
 20
-79.0541766514
 10
464.5701846533
 20
-76.7698302052
 10
464.0625221787
 20
-74.6464250024
 10
463.358242906
 20
-72.7031909294
 10
462.4637248974
 20
-70.9577262148
 10
461.3870690464
 20
-69.4258380575
 10
460.1380257154
 20
-68.1213994737
 10
458.7279064339
 20
-67.0562236613
 10
457.1694814606
 20
-66.2399570174
 10
455.4768641335
 20
-65.679991779
 10
453.665383057
 20
-65.3813990783
 10
451.7514432845
 20
-65.3468830168
 10
449.7523777507
 20
-65.5767561773
 10
447.6862903028
 20
-66.068936793
 10
446.8179890367
 20
-66.3477193937
  0
LWPOLYLINE
  5
EF
330
1F
100
AcDbEntity
  8
0
  6
Continuous
 62
     7
370
    25
100
AcDbPolyline
 90
       32
 70
   128
 43
0.0
 10
420.170154812
 20
-112.5081237585
 10
420.6408269375
 20
-114.4361884678
 10
421.3451062102
 20
-116.3794225408
 10
422.2396242188
 20
-118.1248872553
 10
423.3162800697
 20
-119.6567754127
 10
424.5653234008
 20
-120.9612139965
 10
425.9754426822
 20
-122.0263898089
 10
427.5338676555
 20
-122.8426564528
 10
429.2264849826
 20
-123.4026216911
 10
431.0379660591
 20
-123.7012143919
 10
432.9519058317
 20
-123.7357304534
 10
434.9509713654
 20
-123.5058572929
 10
437.0170588133
 20
-123.0136766772
 10
439.1314573675
 20
-122.2636458703
 10
441.2750187072
 20
-121.2625572672
 10
443.428330409
 20
-120.0194768815
 10
445.5718917487
 20
-118.5456622415
 10
447.6862903028
 20
-116.8544604409
 10
449.7523777507
 20
-114.961187265
 10
451.7514432845
 20
-112.882988489
 10
453.665383057
 20
-110.6386846027
 10
455.4768641335
 20
-108.2486003698
 10
457.1694814606
 20
-105.734380763
 10
458.7279064339
 20
-103.1187949445
 10
460.1380257154
 20
-100.4255300646
 10
461.3870690464
 20
-97.678976747
 10
462.4637248974
 20
-94.9040082039
 10
463.358242906
 20
-92.1257549801
 10
464.0625221787
 20
-89.3693773671
 10
464.5701846533
 20
-86.6598375473
 10
464.8766328599
 20
-84.021673533
 10
464.979091556
 20
-81.4787769459
  0
ARC
  5
F0
330
1F
100
AcDbEntity
  8
0
  6
Continuous
 62
     7
370
    25
100
AcDbCircle
 10
506.4144923681
 20
-119.1655572931
 30
0.0
 40
15.14860989655715
100
AcDbArc
 50
357.4105455126
 51
32.4751199348
  0
LWPOLYLINE
  5
F1
330
1F
100
AcDbEntity
  8
0
  6
Continuous
 62
     7
370
    25
100
AcDbPolyline
 90
       21
 70
   128
 43
0.0
 10
495.0595795897
 20
-152.8387406426
 10
495.5895949017
 20
-152.8708062844
 10
497.3267845309
 20
-152.7960421314
 10
499.140686963
 20
-152.4546607504
 10
501.0100358504
 20
-151.8506645262
 10
502.9129147866
 20
-150.9911347621
 10
504.827014256
 20
-149.8861486587
 10
506.7298931922
 20
-148.5486611679
 10
508.5992420796
 20
-146.9943531075
 10
510.4131445117
 20
-145.2414473185
 10
512.1503341409
 20
-143.3104950185
 10
513.7904440071
 20
-141.2241348578
 10
515.3142453217
 20
-139.0068275017
 10
516.7038729075
 20
-136.6845688516
 10
517.9430346517
 20
-134.2845852669
 10
519.0172025157
 20
-131.8350143609
 10
519.9137828635
 20
-129.3645751127
 10
520.6222641102
 20
-126.9022311639
 10
521.134339961
 20
-124.4768512457
 10
521.4440067948
 20
-122.1168707203
 10
521.547634051
 20
-119.8499582016
  0
LWPOLYLINE
  5
F2
330
1F
100
AcDbEntity
  8
0
  6
Continuous
 62
     7
370
    25
100
AcDbPolyline
 90
        9
 70
   128
 43
0.0
 10
566.0953612657
 20
-145.566813724
 10
565.9917340095
 20
-143.4195466885
 10
565.6820671758
 20
-141.4170998791
 10
565.169991325
 20
-139.5829501536
 10
564.4615100782
 20
-137.9386012407
 10
563.5649297305
 20
-136.5033316278
 10
562.4907618664
 20
-135.293968539
 10
561.2516001223
 20
-134.3246906507
 10
560.916675894
 20
-134.1206935623
  0
LWPOLYLINE
  5
F3
330
1F
100
AcDbEntity
  8
0
  6
Continuous
 62
     7
370
    25
100
AcDbPolyline
 90
       23
 70
   128
 43
0.0
 10
535.9187075781
 20
-177.4231366813
 10
536.9734109356
 20
-177.9369683836
 10
538.4972122502
 20
-178.3949321905
 10
540.1373221164
 20
-178.5876618068
 10
541.8745117456
 20
-178.5128976538
 10
543.6884141777
 20
-178.1715162729
 10
545.5577630651
 20
-177.5675200486
 10
547.4606420014
 20
-176.7079902845
 10
549.3747414707
 20
-175.6030041811
 10
551.277620407
 20
-174.2655166903
 10
553.1469692944
 20
-172.7112086299
 10
554.9608717265
 20
-170.9583028409
 10
556.6980613556
 20
-169.0273505409
 10
558.3381712218
 20
-166.9409903802
 10
559.8619725365
 20
-164.7236830241
 10
561.2516001223
 20
-162.401424374
 10
562.4907618664
 20
-160.0014407894
 10
563.5649297305
 20
-157.5518698833
 10
564.4615100782
 20
-155.0814306352
 10
565.169991325
 20
-152.6190866863
 10
565.6820671758
 20
-150.1937067681
 10
565.9917340095
 20
-147.8337262427
 10
566.0953612657
 20
-145.566813724
  0
ENDSEC
  0
SECTION
  2
OBJECTS
  0
DICTIONARY
  5
C
330
0
100
AcDbDictionary
281
     1
  3
ACAD_GROUP
350
D
  3
ACAD_LAYOUT
350
1A
  3
ACAD_MLINESTYLE
350
17
  3
ACAD_PLOTSETTINGS
350
19
  3
ACAD_PLOTSTYLENAME
350
E
  3
ACAD_SCALELIST
350
47
  3
DWGPROPS
350
F4
  0
DICTIONARY
  5
D
102
{ACAD_REACTORS
330
C
102
}
330
C
100
AcDbDictionary
281
     1
  0
DICTIONARY
  5
1A
102
{ACAD_REACTORS
330
C
102
}
330
C
100
AcDbDictionary
281
     1
  3
Layout1
350
1E
  3
Layout2
350
26
  3
Model
350
22
  0
DICTIONARY
  5
17
102
{ACAD_REACTORS
330
C
102
}
330
C
100
AcDbDictionary
281
     1
  3
Standard
350
18
  0
DICTIONARY
  5
19
102
{ACAD_REACTORS
330
C
102
}
330
C
100
AcDbDictionary
281
     1
  0
ACDBDICTIONARYWDFLT
  5
E
102
{ACAD_REACTORS
330
C
102
}
330
C
100
AcDbDictionary
281
     1
  3
Normal
350
F
100
AcDbDictionaryWithDefault
340
F
  0
DICTIONARY
  5
47
102
{ACAD_REACTORS
330
C
102
}
330
C
100
AcDbDictionary
281
     1
  3
A0
350
48
  3
A1
350
49
  3
A2
350
4A
  3
A3
350
4B
  3
A4
350
4C
  3
A5
350
4D
  3
A6
350
4E
  3
A7
350
4F
  3
A8
350
50
  3
A9
350
51
  3
B0
350
52
  3
B1
350
53
  3
B2
350
54
  3
B3
350
55
  3
B4
350
56
  3
B5
350
57
  3
B6
350
58
  3
B7
350
59
  3
B8
350
5A
  3
B9
350
5B
  3
C0
350
5C
  3
C1
350
5D
  3
C2
350
5E
  3
C3
350
5F
  3
C4
350
60
  3
C5
350
61
  3
C6
350
62
  3
C7
350
63
  3
C8
350
64
  3
C9
350
65
  3
D0
350
66
  3
D1
350
67
  3
D2
350
68
  0
XRECORD
  5
F4
102
{ACAD_REACTORS
330
C
102
}
330
C
100
AcDbXrecord
280
     1
  1
DWGPROPS COOKIE
  2

  3

  4

  6

  7

  8
b.kav
  9

300
=
301
=
302
=
303
=
304
=
305
=
306
=
307
=
308
=
309
=
 40
0.0
 41
2459935.584635382
 42
2459935.584635556
  1

 90
        0
  0
LAYOUT
  5
1E
102
{ACAD_REACTORS
330
1A
102
}
330
1A
100
AcDbPlotSettings
  1

  2
none_device
  4

  6

 40
0.0
 41
0.0
 42
0.0
 43
0.0
 44
0.0
 45
0.0
 46
0.0
 47
0.0
 48
0.0
 49
0.0
140
0.0
141
0.0
142
1.0
143
1.0
 70
   688
 72
     1
 73
     0
 74
     5
  7

 75
    16
147
1.0
148
0.0
149
0.0
100
AcDbLayout
  1
Layout1
 70
     1
 71
     1
 10
0.0
 20
0.0
 11
420.0
 21
297.0
 12
0.0
 22
0.0
 32
0.0
 14
1.0000000000E+20
 24
1.0000000000E+20
 34
1.0000000000E+20
 15
-1.0000000000E+20
 25
-1.0000000000E+20
 35
-1.0000000000E+20
146
0.0
 13
0.0
 23
0.0
 33
0.0
 16
1.0
 26
0.0
 36
0.0
 17
0.0
 27
1.0
 37
0.0
 76
     0
330
1B
  0
LAYOUT
  5
26
102
{ACAD_REACTORS
330
1A
102
}
330
1A
100
AcDbPlotSettings
  1

  2
none_device
  4

  6

 40
0.0
 41
0.0
 42
0.0
 43
0.0
 44
0.0
 45
0.0
 46
0.0
 47
0.0
 48
0.0
 49
0.0
140
0.0
141
0.0
142
1.0
143
1.0
 70
   688
 72
     1
 73
     0
 74
     5
  7

 75
    16
147
1.0
148
0.0
149
0.0
100
AcDbLayout
  1
Layout2
 70
     1
 71
     2
 10
0.0
 20
0.0
 11
0.0
 21
0.0
 12
0.0
 22
0.0
 32
0.0
 14
0.0
 24
0.0
 34
0.0
 15
0.0
 25
0.0
 35
0.0
146
0.0
 13
0.0
 23
0.0
 33
0.0
 16
1.0
 26
0.0
 36
0.0
 17
0.0
 27
1.0
 37
0.0
 76
     0
330
23
  0
LAYOUT
  5
22
102
{ACAD_REACTORS
330
1A
102
}
330
1A
100
AcDbPlotSettings
  1

  2
none_device
  4
Letter_(8.50_x_11.00_Inches)
  6

 40
6.35
 41
6.35
 42
6.35000508
 43
6.35000508
 44
215.9
 45
279.4
 46
0.0
 47
0.0
 48
0.0
 49
0.0
140
0.0
141
0.0
142
1.0
143
1.0
 70
  1712
 72
     1
 73
     0
 74
     0
  7

 75
     0
147
1.0
148
0.0
149
0.0
100
AcDbLayout
  1
Model
 70
     1
 71
     0
 10
0.0
 20
0.0
 11
279.4
 21
215.9
 12
0.0
 22
0.0
 32
0.0
 14
0.0
 24
0.0
 34
0.0
 15
279.4
 25
215.9
 35
0.0
146
0.0
 13
0.0
 23
0.0
 33
0.0
 16
1.0
 26
0.0
 36
0.0
 17
0.0
 27
1.0
 37
0.0
 76
     0
330
1F
331
29
  0
MLINESTYLE
  5
18
102
{ACAD_REACTORS
330
17
102
}
330
17
100
AcDbMlineStyle
  2
Standard
 70
     0
  3

 62
   256
 51
90.0
 52
90.0
 71
     2
 49
0.5
 62
   256
  6
BYLAYER
 49
-0.5
 62
   256
  6
BYLAYER
  0
ACDBPLACEHOLDER
  5
F
102
{ACAD_REACTORS
330
E
102
}
330
E
  0
SCALE
  5
48
102
{ACAD_REACTORS
330
47
102
}
330
47
100
AcDbScale
 70
     0
300
1:1
140
1.0
141
1.0
290
     1
  0
SCALE
  5
49
102
{ACAD_REACTORS
330
47
102
}
330
47
100
AcDbScale
 70
     0
300
1:2
140
1.0
141
2.0
290
     0
  0
SCALE
  5
4A
102
{ACAD_REACTORS
330
47
102
}
330
47
100
AcDbScale
 70
     0
300
1:4
140
1.0
141
4.0
290
     0
  0
SCALE
  5
4B
102
{ACAD_REACTORS
330
47
102
}
330
47
100
AcDbScale
 70
     0
300
1:5
140
1.0
141
5.0
290
     0
  0
SCALE
  5
4C
102
{ACAD_REACTORS
330
47
102
}
330
47
100
AcDbScale
 70
     0
300
1:8
140
1.0
141
8.0
290
     0
  0
SCALE
  5
4D
102
{ACAD_REACTORS
330
47
102
}
330
47
100
AcDbScale
 70
     0
300
1:10
140
1.0
141
10.0
290
     0
  0
SCALE
  5
4E
102
{ACAD_REACTORS
330
47
102
}
330
47
100
AcDbScale
 70
     0
300
1:16
140
1.0
141
16.0
290
     0
  0
SCALE
  5
4F
102
{ACAD_REACTORS
330
47
102
}
330
47
100
AcDbScale
 70
     0
300
1:20
140
1.0
141
20.0
290
     0
  0
SCALE
  5
50
102
{ACAD_REACTORS
330
47
102
}
330
47
100
AcDbScale
 70
     0
300
1:30
140
1.0
141
30.0
290
     0
  0
SCALE
  5
51
102
{ACAD_REACTORS
330
47
102
}
330
47
100
AcDbScale
 70
     0
300
1:40
140
1.0
141
40.0
290
     0
  0
SCALE
  5
52
102
{ACAD_REACTORS
330
47
102
}
330
47
100
AcDbScale
 70
     0
300
1:50
140
1.0
141
50.0
290
     0
  0
SCALE
  5
53
102
{ACAD_REACTORS
330
47
102
}
330
47
100
AcDbScale
 70
     0
300
1:100
140
1.0
141
100.0
290
     0
  0
SCALE
  5
54
102
{ACAD_REACTORS
330
47
102
}
330
47
100
AcDbScale
 70
     0
300
2:1
140
2.0
141
1.0
290
     0
  0
SCALE
  5
55
102
{ACAD_REACTORS
330
47
102
}
330
47
100
AcDbScale
 70
     0
300
4:1
140
4.0
141
1.0
290
     0
  0
SCALE
  5
56
102
{ACAD_REACTORS
330
47
102
}
330
47
100
AcDbScale
 70
     0
300
8:1
140
8.0
141
1.0
290
     0
  0
SCALE
  5
57
102
{ACAD_REACTORS
330
47
102
}
330
47
100
AcDbScale
 70
     0
300
10:1
140
10.0
141
1.0
290
     0
  0
SCALE
  5
58
102
{ACAD_REACTORS
330
47
102
}
330
47
100
AcDbScale
 70
     0
300
100:1
140
100.0
141
1.0
290
     0
  0
SCALE
  5
59
102
{ACAD_REACTORS
330
47
102
}
330
47
100
AcDbScale
 70
     0
300
1/128" = 1'-0"
140
0.0078125
141
12.0
290
     0
  0
SCALE
  5
5A
102
{ACAD_REACTORS
330
47
102
}
330
47
100
AcDbScale
 70
     0
300
1/64" = 1'-0"
140
0.015625
141
12.0
290
     0
  0
SCALE
  5
5B
102
{ACAD_REACTORS
330
47
102
}
330
47
100
AcDbScale
 70
     0
300
1/32" = 1'-0"
140
0.03125
141
12.0
290
     0
  0
SCALE
  5
5C
102
{ACAD_REACTORS
330
47
102
}
330
47
100
AcDbScale
 70
     0
300
1/16" = 1'-0"
140
0.0625
141
12.0
290
     0
  0
SCALE
  5
5D
102
{ACAD_REACTORS
330
47
102
}
330
47
100
AcDbScale
 70
     0
300
3/32" = 1'-0"
140
0.09375
141
12.0
290
     0
  0
SCALE
  5
5E
102
{ACAD_REACTORS
330
47
102
}
330
47
100
AcDbScale
 70
     0
300
1/8" = 1'-0"
140
0.125
141
12.0
290
     0
  0
SCALE
  5
5F
102
{ACAD_REACTORS
330
47
102
}
330
47
100
AcDbScale
 70
     0
300
3/16" = 1'-0"
140
0.1875
141
12.0
290
     0
  0
SCALE
  5
60
102
{ACAD_REACTORS
330
47
102
}
330
47
100
AcDbScale
 70
     0
300
1/4" = 1'-0"
140
0.25
141
12.0
290
     0
  0
SCALE
  5
61
102
{ACAD_REACTORS
330
47
102
}
330
47
100
AcDbScale
 70
     0
300
3/8" = 1'-0"
140
0.375
141
12.0
290
     0
  0
SCALE
  5
62
102
{ACAD_REACTORS
330
47
102
}
330
47
100
AcDbScale
 70
     0
300
1/2" = 1'-0"
140
0.5
141
12.0
290
     0
  0
SCALE
  5
63
102
{ACAD_REACTORS
330
47
102
}
330
47
100
AcDbScale
 70
     0
300
3/4" = 1'-0"
140
0.75
141
12.0
290
     0
  0
SCALE
  5
64
102
{ACAD_REACTORS
330
47
102
}
330
47
100
AcDbScale
 70
     0
300
1" = 1'-0"
140
1.0
141
12.0
290
     0
  0
SCALE
  5
65
102
{ACAD_REACTORS
330
47
102
}
330
47
100
AcDbScale
 70
     0
300
1-1/2" = 1'-0"
140
1.5
141
12.0
290
     0
  0
SCALE
  5
66
102
{ACAD_REACTORS
330
47
102
}
330
47
100
AcDbScale
 70
     0
300
3" = 1'-0"
140
3.0
141
12.0
290
     0
  0
SCALE
  5
67
102
{ACAD_REACTORS
330
47
102
}
330
47
100
AcDbScale
 70
     0
300
6" = 1'-0"
140
6.0
141
12.0
290
     0
  0
SCALE
  5
68
102
{ACAD_REACTORS
330
47
102
}
330
47
100
AcDbScale
 70
     0
300
1'-0" = 1'-0"
140
12.0
141
12.0
290
     0
  0
ENDSEC
  0
EOF
